Greatest Story Ever Told

Intro

Back to rukind

I

--F---E--F---F--F--E--F--Dm-F--G--C--C--G--Am
-----sus4---------sus4

e----------------------------------
b-10-10-10--10--10-10-10-10-10-8---
g-10po9h10---X--10po9h10--7--X-7---
d-----------10--------------10-9--10-10--9-10
a---------------------------------10-10-10-12
e----------------------------------

--Am-G-F-Em-Dm-------G--F--C---F--C

e-----------5-5-5-5--7--5--8---8--8--
b-----------6-6-6-6--8--6--8---10-8---
g-----------7-7-7-7--7--5--9---10-9--
d-10-9-7-5-7-7-7-7--9--7--10--10-10---
a-12-10-8-7-5-5-5-5-10-8---------
e----------------------------------

II

--F---E--F---F--F--E--F--Dm-F--G--C--C--G--Am
-----sus4---------sus4

e----------------------------------
b-10-10-10--10--10-10-10-10-10-8---
g-10po9h10---X--10po9h10--7--X-7---
d-----------10--------------10-9--10-10--9-10
a---------------------------------10-10-10-12
e----------------------------------


--Am-G-F-Em-Dm---------------Em----F--Em-Dm------

e----------------------------------
b----------------------------8-8---10po8-8--
g--------------------------7-9-7h9-10po9-7--
d-10--9-7-5----------7-9-10-----------------
a-12-10-8-7-5pu7-8-10----------------------
e-------------------------------


--G-----F---Abm7-Am7

e----------------------------------
b-12-12-10--9-pu-10-----------------------------
g-12-12-10--8-pu--9-----------------------------
d-12-12-10--9-pu-10-----------------------------
a-----------------------------------
e----------------------------------