Terrapin Station

Terrapin

(^) Slide Up  (\) Slide Down  (h) Hammer On  (p) Pull Off  (b) Bend

MP3 Tab Support Audio (89K)

MIDI Tab Support Audio (terrap8.mid)

E-------------------------0---------------------------------
B-------------------------1---------------------------------
G-------------------------2---------------------------------
D--2-0-----0--------------2---------------------------------
A------3-----3--2---3-2---0---------------------------------
E-----------------------3-----------------------------------

    Am            G            C          G
E---0--0--0-------3--3--3------0--0--0----3--3--3-----------
B---1--1--1-------0--0--0------1--1--1----0--0--0-----------
G---2--2--2-------0--0--0------0--0--0----0--0--0-----------
D---2--2--2-------0--0--0------2--2--2----0--0--0-----------
A---0--0--0-------2--2--2------3--3--3----2--2--2-----------
E-----------------3--3--3------3--3--3----3--3--3-----------

     D                                                    Am
E----2----2--2----0-2-3p2p0---0h2--------------------------0
B----3----3--3--------------3------------------------------1
G----2----2--2---------------------------------------------2
D----0----0--0----------------------2-0-----0--------------2
A---------------------------------------3-----3--2--3-2----0
E-------------------------------------------------------3---

    Am      G       C      G       D

E-----------------------------------------------------------
B------1----0---------------------------1-------------------
G----2--------0---------2----0------------2-----------------
D--2------------0---0-2--------2-0----2---------------------
A-----------------------------------------------------------
E-----------------------------------------------------------

E--0---2------------2----2---0-2-3p2p0---0h2----------------
B----4-3--------0-3------3-------------3--------------------
G------2----0-2----------2----------------------------------
D------0-----------------0----------------------------------
A-----------------------------------------------------------
E-----------------------------------------------------------

E---0--------------------------------0----------------------
B------3--1-----3--1--0----1--0------1----------------------
G--------------------------------0---2----------------------
D------------------------------------2----------------------
A------------------------------------0----------------------
E-----------------------------------------------------------