Terrapin Station

Terrapin Flyer

(^) Slide Up  (\) Slide Down  (h) Hammer On  (p) Pull Off  (b) Bend

MP3 Tab Support Audio (102K)

MIDI Tab Support Audio (terrap0.mid)

This part 8X
E-----------------------------------------------------------
B-----------------------------------------------------------
G---------------7-------------7-----------------------------
D----------10-7------------10---7---------------------------
A--10-7-10---------10-7-10----------------------------------
E-----------------------------------------------------------

  This part 4X             This part 4X
E------------------------|----------------------------------
B------------------------|----------------------------------
G------------------10p9--|--------------------12p11---------
D---------------12-------|----------------14----------------
A--12-12--10-12----------|--14-14---12-14-------------------
E------------------------|----------------------------------

E-----------------------------------------------------------
B-----------------------------------------------------------
G------------------7----------------------------------------
D-----------9--------10--7----------------------------------
A--------10---12-----------8--10----------------------------
E--10-12----------------------------------------------------