Terrapin Station

Terrapin Station Outro

(^) Slide Up  (\) Slide Down  (h) Hammer On  (p) Pull Off  (b) Bend

MP3 Tab Support Audio (39K)

MIDI Tab Support Audio (terrap7.mid)

  I can’t figure out   If it’s the end or beginning
E-----------------------------------------------------------
B-----------------------------------------------------------
G------------4----------------------------------------------
D--2-0----2------2-----2--2----2---2---0--2-4--2--0---------
A-----------------------------------------------------------
E-----------------------------------------------------------

   But the train’s put it’s brakes on
E-----------------------------------------------------------
B-----------------------------------------------------------
G-----------------------------------------------------------
D--2---2---2------0----2----0-------------------------------
A----------------------------------2------------------------
E-----------------------------------------------------------

   And the whistle is screaming  TERRAPIN!    (Starts Terrapin)
E--------------------------------2-----------0-2-3p2p0---0h2
B--------------------------------3---------------------3----
G--------------------------------2--------------------------
D--2---2---2---0---2-4p2---0-----0--------------------------
A-----------------------------------------------------------
E-----------------------------------------------------------

Return To Base