Brown-Eyed Women

Intro

Back to rukind

(^) Slide Up  (\) Slide Down  (h) Hammer On  (p) Pull Off  (b) Bend

MP3 Tab Support Audio (27K)

MIDI Tab Support Audio (brwneyed.mid)

E-----------------------------------------------------------
B-----------------------------------------------------------
G-------4-5-6-6----6^8\6--4-4---4h6p4-----------------------
D---4^6--------------------------------6--------------------
A-----------------------------------------------------------
E-----------------------------------------------------------

E-----------------------------------------------------4-----
B-----------------------------------------------------5-----
G---------------------------------0--1----------------6-----
D---4\2--2--2------2--2-----2--4----------------------6-----
A---------------4---------------------------2-2--3-3--4-----
E-----------------------------------------------------------

Return To Base