Dupree's Diamond Blues

Intro

(^) Slide Up  (\) Slide Down  (h) Hammer On  (p) Pull Off  (b) Bend

MP3 Tab Support Audio (52K)

MIDI Tab Support Audio (duprees.mid)

E-------------------------------|---------------------------
B-------------------------------|---------------------------
G-------------------------------|---------------------------
D-------------------2-----2--2--|---------------------------
A----------------2-----2--------|--2--3--2--3--0------------
E--2^3--2--1--0-----------------|---------------------------

E----------2--2--3--2--|------------------------------------
B----------3--3--3--3--|------------------------------------
G----------2--2--2--2--|------------------------------------
D----------0--0--0--0--|--------2-----0---------------------
A--0h2h4---------------|-----2-----2------------------------
E----------------------|--3---------------------------------

E-------------------------------|---------------------------
B-------------------------------|---------------------------
G-------------------------------|---------------------------
D-------------------2-----2--2--|--------------2------------
A----------------2-----2--------|--2--3--2--3---------------
E--2^3--2--1--0-----------------|---------------------------

E----------2--2--3--2--|
B----------3--3--3--3--|
G----------2--2--2--2--|
D----------0--0--0--0--|
A--0h2h3---------------|
E----------------------|

E-----------|-------------|---------------------------------
B---------1-|-----------1-|---------------------------------
G------0----|--------0----|-------------0-------------------
D---2-------|-2---1-------|-1---0--2--4---------------------
A-----------|-------------|---------------------------------
E-----------|-------------|---------------------------------