Mississippi Half-Step Uptown Toodeloo

Intro

(^) Slide Up  (\) Slide Down  (h) Hammer On  (p) Pull Off  (b) Bend

MP3 Tab Support Audio (21K)

MIDI Tab Support Audio (misshlf1.mid)

          Am Am/maj7 Am7 D9      D7               G7
E-----------------------------------------------------------
B-----------------------------------------------------------
G-----------------------------------------------------------
D-----5-6-7---6-6---5---3-4-------------------4--5----------
A--7----------------------------4h5--4--5--7----------------
E-----------------------------------------------------------

E-----------------------------------------------------------
B-----------------------------------------------------------
G-----------------------------------------------------------
D-----5--3--------------------------------------------------
A--5---------------0--2--3----------------------------------
E---------------3-------------------------------------------